Malay Kids In France

Untuk Orang Melayu saja!

 
HomeHome  PortalPortal  FAQFAQ  SearchSearch  RegisterRegister  MemberlistMemberlist  UsergroupsUsergroups  Log in  

Share | 
 

 Maria Maria by Carlos Santosa (tabs )

Go down 
AuthorMessage
Luqman
Rang: Administrateur
avatar

Number of posts : 1712
Age : 26
Localisation : Ikut suka hati aku lah
Registration date : 2005-08-10

PostSubject: Maria Maria by Carlos Santosa (tabs )   Mon 24 Oct Ó 8:33

Lagu nie aku jadi tapi tak lah terer macam Dia !

Intro and verse: classical guitar
|------7-8-7-7---|
|---10-----------|
|-9--------------|
|----------------|
|----------------|
|----------------|



|---------8-7-10-8-7-8-7-8-7--------|
|---10-10--------------------10-----|
|-9---------------------------------|
|-----------------------------------|
|-----------------------------------|
|-----------------------------------|



|-------------|
|-------------|
|----7-9------|
|-10----------|
|-------------|
|-------------|



|---------------------------|
|--------8------------------|
|----7-9---10-9-7----7-9----|
|-10--------------10--------|
|---------------------------|
|---------------------------|


...maria maria
|--------------------------------|
|-------------12-----------------|
|----------14----14--------------|
|-12-14-15----------15-14-15-----|
|--------------------------------|
|--------------------------------|


...story
|-----------------------------------|
|-----------------------------------|
|-------------12--------------------|
|-------12-14----15-14-15--14-12----|
|-12-15-----------------------------|
|-----------------------------------|


...harlem
|-------------------------|
|-------------------------|
|---7---------------------|
|-9---10-9-10-10p9--------|
|-------------------------|
|-------------------------|


...star
|---------------------------------------12-12-12-12-13-----
|-----------------12-----13-----15-------------------------
|----------14----------------------------------------------
|----12-14-----14-----14-----------------------------------
|-15-------------------------------------------------------
|----------------------------------------------------------


...maria maria
---12-13-12-15-13-12-13p12------|
--------------------------15----|
--------------------------------|
--------------------------------|
--------------------------------|
--------------------------------|


...East L.A.
|-----------------------------------------------------------
|-------12-13-12-15-12-13-13--12--12------------------------
|----14-------------------------------14--------------------
|-14------------------------------------------14-15-14------
|-----------------------------------------------------------
|-----------------------------------------------------------


...guitar, yeah
-------------------------------------|
-------------------------------------|
--------------12---------------------|
--------12-14----15-14-15-14-12------|
--14-15------------------------------|
-------------------------------------|


...Santana (Chorus - Electric)
|-12-----12-13-12-------------12-----12-17-12-------------12--12-----
|------------------13------13------------------13------13 --15-------
|-----------------------14--------------------------14---------------
|--------------------------------------------------------------------
|--------------------------------------------------------------------
|--------------------------------------------------------------------



--12-13-12-------------12--12-12--12-12-12 -12-12-12-------|
------------13------13-----13-13--13-13-13 -13-13-13-15----|
-----------------14-------------------------------------14-|
-----------------------------------------------------------|
-----------------------------------------------------------|
-----------------------------------------------------------|


...maria maria (classical)
|----------------------------------------|
|-------------8--8-----------------------|
|----7-9-10-9-------10--10--9--9---------|
|-10-------------------------------10\---|
|----------------------------------------|
|----------------------------------------|


...story
|------7-7-8-8-8-7-10-8-7---------|
|---10--------------------10------|
|-9-------------------------------|
|---------------------------------|
|---------------------------------|
|---------------------------------|


...harlem
|-----------------------------|
|--------8--------------------|
|-9-10-9---10-9---------------|
|----------------10h12p10-----|
|-----------------------------|
|-----------------------------|


...star, oh
|-------------------------|
|----------12-12-13-13----|
|-14-13-14----------------|
|-------------------------|
|-------------------------|
|-------------------------|


maria maria
|------------------------------------------------|
|-15-15-15--------------------------------15-----|
|----------14--14----------------------14--------|
|------------------15--12-----12-14-15-----------|
|--------------------------12--------------------|
|------------------------------------------------|


...East L.A.
|-12-15-15--13-12----------12-12-------------|
|-----------------15-13-15-------------------|
|----------------------------------14-14-----|
|--------------------------------------------|
|--------------------------------------------|
|--------------------------------------------|


...guitar
|---7-10-8-7-8-7-8-7----7---------|
|-8------------------10-----------|
|---------------------------------|
|---------------------------------|
|---------------------------------|
|---------------------------------|


...Santana (electric)
|-12-----12-13-12-------------12--12-----12-13-12-------------12--12------
|------------------13------13---13-----------------13------13---15--------
|-----------------------14------------------------------14----------------
|-------------------------------------------------------------------------
|-------------------------------------------------------------------------
|-------------------------------------------------------------------------



-12-17-12-------------12-12-12-12-12-12----------|
-----------13------13-------13-13-13-13-15-------|
----------------14-------------------------14----|
-------------------------------------------------|
-------------------------------------------------|
-------------------------------------------------|


...esperanza
|--------------------------|
|--------------------------|
|----------14----14-14-----|
|-14-14-14----14-----------|
|--------------------------|
|--------------------------|


Bridge: (classical)
|--------------------------------------------------------------
|--------------------------------------------------------------
|----------------9-10-9-7----7-9----7----9-9------9------------
|---7-9-10----------------10---------10-----10-7----10--10-7---
|-7------------------------------------------------------------
|--------------------------------------------------------------



------------7-8-7----------------------------------------------------
------------------10-------------------------------------------------
----------9-----------9--9--9--7----12--12--10-10-9h10p9----9--------
---7-9-10------------------------------------------------12---12-----
-7-------------------------------------------------------------------
---------------------------------------------------------------------



---------------------------7-7-8-8-10-10--12/////-----10-12-10----10----
-----------------10-10--10-------------------------------------13-------
----7-9-7--7---7--------------------------------------------------------
-10---------------------------------------------------------------------
------------------------------------------------------------------------
------------------------------------------------------------------------


...story
-----12----12----12-12-12-12------------------------------|
---13----13----13------------13--13-----------------------|
-14----14----14----------------------14-------------------|
-----------------------------------------12----12-12------|
--------------------------------------------15------------|
----------------------------------------------------------|


...harlem
|-7-8-7-------------------------|
|-------8-----------------------|
|---------9-7h9-7----7-9-7------|
|-----------------10------------|
|-------------------------------|
|-------------------------------|


...movie star (electric)
|-------12-12-------12-12-----12-12--12-12-12-12-12----------|
|----13----------13--------13----13--13-13-13-13-13-15-------|
|-14----------14---------14----------------------------14----|
|------------------------------------------------------------|
|------------------------------------------------------------|
|------------------------------------------------------------|


Maria maria
|-15^--15^-15^-15^-15^r-12-15-15p12---12--------------|
|----------------------------------15---15-13----15---|
|-----------------------------------------------------|
|-----------------------------------------------------|
|-----------------------------------------------------|
|-----------------------------------------------------|


...East L.A.
|----12-12------12-12-----12-12----12-------------|
|-15^------15^--------15^-------15-13-13-15-------|
|-------------------------------------------14----|
|-------------------------------------------------|
|-------------------------------------------------|
|-------------------------------------------------|


...guitar
|----------------------12-------------------------------------------|
|-------------12-13-12----15-13-12--13-12--12h13p12-----------------|
|----------14---------------------------------------14-12-----14----|
|-12-14-15----------------------------------------------------------|
|-------------------------------------------------------------------|
|-------------------------------------------------------------------|


...Santana
|-12-----13-12-------------12-----12-13-12-------------12--12----
|---------------13------13------------------13------13---13------
|--------------------14--------------------------14--------------
|----------------------------------------------------------------
|----------------------------------------------------------------
|----------------------------------------------------------------



-12-13-12-------------12--12-----12-17-12---------------|
-----------13------13---15-----------------13------13---|
----------------14------------------------------14------|
--------------------------------------------------------|
--------------------------------------------------------|
--------------------------------------------------------|



|-------12-12-------12-12--12-----------------------------------|
|----13-------13--------------13------------------------13------|
|-14-------------14--------------14--14--14-14-14--14-----------|
|---------------------------------------------------------------|
|---------------------------------------------------------------|
|---------------------------------------------------------------|



|---12-----12-13-12-------------12--12-----12-17-12----------------|
|-*------------------13------13---15-----------------13------13--*-|
|-------------------------14------------------------------14-------|
|------------------------------------------------------------------|
|-*--------------------------------------------------------------*-|
|------------------------------------------------------------------|

_________________
Special Thanks for zaim and kak fiqah sebab tolong kita buat forum nie Wink
Back to top Go down
View user profile http://malaydifrance.forumactif.com
 
Maria Maria by Carlos Santosa (tabs )
Back to top 
Page 1 of 1
 Similar topics
-
» MARIA BERNADETTE ALDRIDGE
» Maria Teresa Fernandez Martin
» Maria Claudia Murphy -- Found Deceased 7/6/12
» Alzheimer's and Dementia
» Seattle man arrested in 1957 murder of Illinois girl

Permissions in this forum:You cannot reply to topics in this forum
Malay Kids In France :: .:Music:. :: LAgu▓-
Jump to: